Stop All The Clocks TAB Nemo Shaw

Nemo Shaw voorzag het beroemde gedicht Stop all the clocks van W.H. Auden van een eenvoudige melodie. Dit lied klinkt alleen wanneer je het goed zingt, maar als oefening leent het zich goed voor beginners die het F-akoord in barré onder de knie willen krijgen. Er zitten kleine variaties in de akkoorden en de singer-songwriter smokkelt bewust met een open d-bas van F naar G.

Stop all the clocks – Nemo Shaw


T = thumb
I = index finger
M = middle finger
R = ring finger

intro:

    G
E |-------3------|-------3--------|
B |-------3------|-------3--------|
G |-----0----0---|-----0---0------|
D |---0--------0-|---0--------0---|
A |--------------|----------------|
E |-3------------|-3--------------|

    T  T I R I T 
           M

verses:

    C              Cmaj7
E |--------0------|--------0-------|
B |--------1------|--------0-------|
G |------0----0---|------0---0-----|
D |----2--------2-|----2--------2--|
A |--3------------|--3-------------|
E |---------------|----------------|


    Am             Am9
E |--------0------|--------0-------|
B |--------1------|--------0-------|
G |------2----2---|------2---2-----|
D |----2--------2-|----2--------2--|
A |--0------------|--0-------------|
E |---------------|----------------|


    F                         d/bass
E |--------1------|-------1--------|
B |--------1------|-------1--------|
G |------2---2----|-----2---2------|
D |----3--------3-|---3--------0---|
A |---------------|----------------|
E |--1------------|-1--------------|


    G              
E |--------3------|--------3-------|
B |--------0------|--------0-------|
G |------0----0---|------0---0-----|
D |----0--------0-|----0--------0--|
A |---------------|----------------|
E |--3------------|--3-------------|