Nieuwe stemmechanieken voor mijn oude Orozco gitaar

Mijn oude Orozco gitaar (1978) is een collector’s item geworden. Orozco gitaren worden niet meer gebouwd en hebben behalve vele voordelen één nadeel: de stemmechanieken hebben een afwijkende maat, vergeleken met zo’n beetje 95 procent van alle klassieke en flamenco gitaren. Dezelfde afwijkende maat tref je aan op oude Duitse gitaren van Hanika of Oscar Teller uit de jaren zeventig. Na een vergeefse speurtocht langs onwelwillende en overbezette gitaarbouwers op het internet kwam ik op het spoor van Peer Dellen, de beroemde Nederlandse gitaarbouwer. Hoewel hij inmiddels geretireerd is, doet hij nog wel eens een klusje als hij daar zin en tijd voor heeft. Eerst probeerde hij de originele mechanieken te herstellen. Dat bleek zinloos, de mechanieken waren volkomen versleten. Geen wonder dat ik altijd maar aan die knoppen zat te draaien. Ik opteerde voor losse stemmechanieken, die je zelden op een Spaanse aantreft. Peer Dellen nam contact op met de Nederlandse Apparatenfabriek Gebr. van Gent B.V., maar die hadden ze niet in voorraad, althans niet die met de juiste dikte. Ze wilden ze wel los voor me maken, beter gezegd voor Peer Dellen, maar dat zou wel even duren. Tijdens de maandenlange afwezigheid van mijn Orozco ging ik op zoek naar een vervanger. Ik probeerde gitaren uit van 700 – 7000 euro, maar geen van die gitaren klonk en speelde zoals de mijne. Nou ja, als je al 36 jaar op een gitaar speelt, dan is het moeilijk wennen aan al die andere halzen, dat nieuwe geluid, dat hout dat tegenwoordig eventjes nat wordt gespoten en direct de droogoven in gaat. Het hout van mijn gitaar heeft, zoals het toen hoorde, drie jaar in het water gelegen en is daarna voor tien jaar te drogen gelegd. Ik heb ook gehoord van hout dat jarenlang in de sneeuw heeft gelegen. Ook niet gek. Maar goed, je kan dan wel een mooi gevormd instrument van kwalitatief goed hout hebben… zonder zes simpele stemknoppen kom je nergens. Onlangs kwamen de stemmechieken binnen, een voor een met de hand gemaakt. Peer Dellen zette ze op mijn gitaar en we hadden geluk: de gaatjes van de oude stemmechieken zijn niet meer te zien. En alleen een kenner valt het op dat de klassieke gitaar aparte stemmechanieken heeft. Ik begrijp sowieso al niet dat gitaarbouwers nog met strips van drie stemmechanieken op rijnwerken in plaats van losse mechanieken, zoals je die aantreft op Amerikaanse flattop gitaren. Ik zag onlangs wel een Bulgaarse flamencogitaar met losse mechanieken, een Kremona. Trendsetters?

Stop All The Clocks TAB Nemo Shaw

Nemo Shaw voorzag het beroemde gedicht Stop all the clocks van W.H. Auden van een eenvoudige melodie. Dit lied klinkt alleen wanneer je het goed zingt, maar als oefening leent het zich goed voor beginners die het F-akoord in barré onder de knie willen krijgen. Er zitten kleine variaties in de akkoorden en de singer-songwriter smokkelt bewust met een open d-bas van F naar G.

Stop all the clocks – Nemo Shaw


T = thumb
I = index finger
M = middle finger
R = ring finger

intro:

    G
E |-------3------|-------3--------|
B |-------3------|-------3--------|
G |-----0----0---|-----0---0------|
D |---0--------0-|---0--------0---|
A |--------------|----------------|
E |-3------------|-3--------------|

    T  T I R I T 
           M

verses:

    C              Cmaj7
E |--------0------|--------0-------|
B |--------1------|--------0-------|
G |------0----0---|------0---0-----|
D |----2--------2-|----2--------2--|
A |--3------------|--3-------------|
E |---------------|----------------|


    Am             Am9
E |--------0------|--------0-------|
B |--------1------|--------0-------|
G |------2----2---|------2---2-----|
D |----2--------2-|----2--------2--|
A |--0------------|--0-------------|
E |---------------|----------------|


    F                         d/bass
E |--------1------|-------1--------|
B |--------1------|-------1--------|
G |------2---2----|-----2---2------|
D |----3--------3-|---3--------0---|
A |---------------|----------------|
E |--1------------|-1--------------|


    G              
E |--------3------|--------3-------|
B |--------0------|--------0-------|
G |------0----0---|------0---0-----|
D |----0--------0-|----0--------0--|
A |---------------|----------------|
E |--3------------|--3-------------|

Tricky fingerpickingmotief van Donovan

Hier is Donovan’s Summer Day Reflection Song. Het is een oud nummer uit de jaren zestig, maar daar liggen de roots van veel hedendaagse fingerpicking gitaristen. De begeleiding van het nummer is een uitstekende oefening als je net begonnen bent met fingerpicking.

De twee maten worden alsmaar herhaald. De 2e maat is tricky. Het G akkoord wordt gebroken gespeeld met een hammer on op de e- en a-bas. Het patroon wijkt er af van de basis folk picking pattern uit mijn lesboeken, een patroon dat je eigenlijk moet kennen voor je hieraan begint. Maar misschien lukt het je zonder die boeken ook wel om met deze backing track mee te spelen. Langzaam beginnen en rustig aan het tempo opvoeren terwijl je strak in de maat blijft.


Capo on 3nd fret

Verse, chorus

    Am9            G
E |---------------|-------------------|
B |----0--------0-|-------------------|
G |----------2----|--------0--------0-|
D |----2--------2-|-----0---------0---|
A |-0------0------|-----------0^2-----|
E |---------------|-0^3---------------|

    T  T/M T I T/M  T   T  I T    T I

Chords Angela McCluskey It’s Been Done

Great song with a classical sounding intro and a quasi reggae beat in the chorus. Play the D-chord in the 11th and 12th measure of the verse with a half barre on the 2nd position. It will be easier then to play the changing bass notes under that chord. That is when you play the song solo on your acoustic guitar. If you’re in a band leave it to the bass player and play the D-chord with no basses at all.


Angela MacCluskey - It's Been Done - Chords

intro:

D | Gm | D | Bb | 2x


verse:

D | Gm          | D | Gm
D | Bm / a bass | G | F#
G | A           | D / cis bass | D b bass / a bass
G | A

repeat intro | 1x

repeat verse | 1x

chorus:

D A | D A | D A | D A |
D A | D A | D A | D A |
G   | A

repeat intro | 1x

verse part 2:

G | A | D / cis bass | D b bass / a bass
G | A

repeat chorus ad lib.